ISO-10303-21;
HEADER;
FILE_DESCRIPTION (( 'STEP AP214' ),
    '1' );
FILE_NAME ('CB100C_STP_V10322.STEP',
    '2022-05-16T13:08:04',
    ( '' ),
    ( '' ),
    'SwSTEP 2.0',
    'SolidWorks 2022',
    '' );
FILE_SCHEMA (( 'AUTOMOTIVE_DESIGN' ));
ENDSEC;

DATA;
#1 = CARTESIAN_POINT ( 'NONE',  ( -502.4999999999999432, 20.00000000000000000, 185.0000000000000000 ) ) ;
#2 = EDGE_LOOP ( 'NONE', ( #157, #221, #191, #273 ) ) ;
#3 = VERTEX_POINT ( 'NONE', #204 ) ;
#4 = VECTOR ( 'NONE', #114, 1000.000000000000114 ) ;
#5 = EDGE_CURVE ( 'NONE', #350, #270, #296, .T. ) ;
#6 = VERTEX_POINT ( 'NONE', #128 ) ;
#7 = ORIENTED_EDGE ( 'NONE', *, *, #313, .F. ) ;
#8 = EDGE_CURVE ( 'NONE', #69, #189, #383, .T. ) ;
#9 = CYLINDRICAL_SURFACE ( 'NONE', #137, 44.99999999999998579 ) ;
#10 = DIRECTION ( 'NONE',  ( 0.000000000000000000, -1.000000000000000000, 0.000000000000000000 ) ) ;
#11 = CARTESIAN_POINT ( 'NONE',  ( -457.5000000000000000, 0.000000000000000000, 230.0000000000000000 ) ) ;
#12 = ORIENTED_EDGE ( 'NONE', *, *, #349, .T. ) ;
#13 = CARTESIAN_POINT ( 'NONE',  ( -457.5000000000000000, 20.00000000000000000, 230.0000000000000000 ) ) ;
#14 = VECTOR ( 'NONE', #18, 1000.000000000000000 ) ;
#15 = CARTESIAN_POINT ( 'NONE',  ( 502.4999999999999432, 25.00000000000000000, 230.0000000000000000 ) ) ;
#16 =( GEOMETRIC_REPRESENTATION_CONTEXT ( 3 ) GLOBAL_UNCERTAINTY_ASSIGNED_CONTEXT ( ( #117 ) ) GLOBAL_UNIT_ASSIGNED_CONTEXT ( ( #142, #113, #302 ) ) REPRESENTATION_CONTEXT ( 'NONE', 'WORKASPACE' ) );
#17 = DIRECTION ( 'NONE',  ( 0.000000000000000000, -1.000000000000000000, 0.000000000000000000 ) ) ;
#18 = DIRECTION ( 'NONE',  ( 0.000000000000000000, 0.000000000000000000, 1.000000000000000000 ) ) ;
#19 = CARTESIAN_POINT ( 'NONE',  ( 502.4999999999999432, 0.000000000000000000, 185.0000000000000000 ) ) ;
#20 = ADVANCED_FACE ( 'NONE', ( #355 ), #79, .F. ) ;
#21 = LINE ( 'NONE', #337, #22 ) ;
#22 = VECTOR ( 'NONE', #314, 1000.000000000000114 ) ;
#23 = APPLICATION_CONTEXT ( 'automotive_design' ) ;
#24 = FACE_OUTER_BOUND ( 'NONE', #247, .T. ) ;
#25 = EDGE_LOOP ( 'NONE', ( #374, #38, #376, #361 ) ) ;
#26 = DIRECTION ( 'NONE',  ( 0.000000000000000000, -1.000000000000000000, 0.000000000000000000 ) ) ;
#27 = ORIENTED_EDGE ( 'NONE', *, *, #160, .T. ) ;
#28 = CARTESIAN_POINT ( 'NONE',  ( 457.5000000000000000, 25.00000000000000000, 230.0000000000000000 ) ) ;
#29 = EDGE_CURVE ( 'NONE', #189, #31, #239, .T. ) ;
#30 = PRESENTATION_LAYER_ASSIGNMENT (  '', '', ( #151 ) ) ;
#31 = VERTEX_POINT ( 'NONE', #261 ) ;
#32 = PLANE ( 'NONE',  #311 ) ;
#33 = ORIENTED_EDGE ( 'NONE', *, *, #152, .F. ) ;
#34 = ORIENTED_EDGE ( 'NONE', *, *, #243, .T. ) ;
#35 = ORIENTED_EDGE ( 'NONE', *, *, #52, .F. ) ;
#36 = AXIS2_PLACEMENT_3D ( 'NONE', #93, #26, #216 ) ;
#37 = LINE ( 'NONE', #280, #249 ) ;
#38 = ORIENTED_EDGE ( 'NONE', *, *, #182, .F. ) ;
#39 = EDGE_CURVE ( 'NONE', #6, #69, #161, .T. ) ;
#40 = CARTESIAN_POINT ( 'NONE',  ( 497.5000000000000000, 25.00000000000000000, 0.000000000000000000 ) ) ;
#41 = CARTESIAN_POINT ( 'NONE',  ( 497.5000000000000000, 25.00000000000000000, -230.0000000000000000 ) ) ;
#42 = AXIS2_PLACEMENT_3D ( 'NONE', #353, #323, #232 ) ;
#43 = DIRECTION ( 'NONE',  ( -1.000000000000000000, 0.000000000000000000, 0.000000000000000000 ) ) ;
#44 =( NAMED_UNIT ( * ) SI_UNIT ( $, .STERADIAN. ) SOLID_ANGLE_UNIT ( ) );
#45 = APPLICATION_CONTEXT ( 'automotive_design' ) ;
#46 = FACE_OUTER_BOUND ( 'NONE', #348, .T. ) ;
#47 = CARTESIAN_POINT ( 'NONE',  ( 502.4999999999999432, 20.00000000000000000, 185.0000000000000000 ) ) ;
#48 = DIRECTION ( 'NONE',  ( -0.7071067811865475727, 0.7071067811865475727, 0.000000000000000000 ) ) ;
#49 = CIRCLE ( 'NONE', #236, 40.00000000000000711 ) ;
#50 = VECTOR ( 'NONE', #299, 1000.000000000000000 ) ;
#51 = DIRECTION ( 'NONE',  ( 0.000000000000000000, 0.000000000000000000, -1.000000000000000000 ) ) ;
#52 = EDGE_CURVE ( 'NONE', #297, #156, #258, .T. ) ;
#53 = DIRECTION ( 'NONE',  ( 0.000000000000000000, 0.000000000000000000, -1.000000000000000000 ) ) ;
#54 = CARTESIAN_POINT ( 'NONE',  ( 0.000000000000000000, 25.00000000000000000, 225.0000000000000000 ) ) ;
#55 = MANIFOLD_SOLID_BREP ( 'NONE', #332 ) ;
#56 = DIRECTION ( 'NONE',  ( 0.000000000000000000, -1.000000000000000000, 0.000000000000000000 ) ) ;
#57 = AXIS2_PLACEMENT_3D ( 'NONE', #122, #88, #186 ) ;
#58 = VECTOR ( 'NONE', #324, 1000.000000000000000 ) ;
#59 = UNCERTAINTY_MEASURE_WITH_UNIT (LENGTH_MEASURE( 1.000000000000000082E-05 ), #107, 'distance_accuracy_value', 'NONE');
#60 = DIRECTION ( 'NONE',  ( 0.000000000000000000, -1.000000000000000000, 0.000000000000000000 ) ) ;
#61 = ORIENTED_EDGE ( 'NONE', *, *, #29, .T. ) ;
#62 = DIRECTION ( 'NONE',  ( 0.000000000000000000, 0.000000000000000000, 1.000000000000000000 ) ) ;
#63 = EDGE_LOOP ( 'NONE', ( #180, #99, #319, #27, #35, #184 ) ) ;
#64 = VECTOR ( 'NONE', #206, 1000.000000000000114 ) ;
#65 = AXIS2_PLACEMENT_3D ( 'NONE', #139, #17, #111 ) ;
#66 = ORIENTED_EDGE ( 'NONE', *, *, #205, .T. ) ;
#67 = EDGE_CURVE ( 'NONE', #6, #233, #327, .T. ) ;
#68 = ORIENTED_EDGE ( 'NONE', *, *, #95, .F. ) ;
#69 = VERTEX_POINT ( 'NONE', #47 ) ;
#70 = CARTESIAN_POINT ( 'NONE',  ( 502.4999999999999432, 0.000000000000000000, 230.0000000000000000 ) ) ;
#71 = VECTOR ( 'NONE', #109, 1000.000000000000000 ) ;
#72 = MECHANICAL_DESIGN_GEOMETRIC_PRESENTATION_REPRESENTATION (  '', ( #151 ), #158 ) ;
#73 = AXIS2_PLACEMENT_3D ( 'NONE', #393, #212, #400 ) ;
#74 = EDGE_CURVE ( 'NONE', #83, #244, #167, .T. ) ;
#75 = LINE ( 'NONE', #229, #223 ) ;
#76 = DIRECTION ( 'NONE',  ( 0.000000000000000000, -1.000000000000000000, 0.000000000000000000 ) ) ;
#77 = VECTOR ( 'NONE', #294, 1000.000000000000114 ) ;
#78 = ADVANCED_FACE ( 'NONE', ( #309 ), #145, .F. ) ;
#79 = PLANE ( 'NONE',  #192 ) ;
#80 = LINE ( 'NONE', #257, #124 ) ;
#81 = CARTESIAN_POINT ( 'NONE',  ( 502.4999999999999432, 25.00000000000000000, -230.0000000000000000 ) ) ;
#82 = DIRECTION ( 'NONE',  ( 0.000000000000000000, 1.000000000000000000, 0.000000000000000000 ) ) ;
#83 = VERTEX_POINT ( 'NONE', #272 ) ;
#84 = ADVANCED_FACE ( 'NONE', ( #175 ), #155, .F. ) ;
#85 = CIRCLE ( 'NONE', #303, 44.99999999999998579 ) ;
#86 = CARTESIAN_POINT ( 'NONE',  ( -457.5000000000000000, 0.000000000000000000, 185.0000000000000000 ) ) ;
#87 = SURFACE_STYLE_FILL_AREA ( #396 ) ;
#88 = DIRECTION ( 'NONE',  ( 0.000000000000000000, 0.000000000000000000, -1.000000000000000000 ) ) ;
#89 = LINE ( 'NONE', #118, #96 ) ;
#90 = EDGE_CURVE ( 'NONE', #270, #307, #21, .T. ) ;
#91 = AXIS2_PLACEMENT_3D ( 'NONE', #336, #150, #51 ) ;
#92 = ORIENTED_EDGE ( 'NONE', *, *, #386, .F. ) ;
#93 = CARTESIAN_POINT ( 'NONE',  ( 457.5000000000000000, 25.00000000000000000, 185.0000000000000000 ) ) ;
#94 = ORIENTED_EDGE ( 'NONE', *, *, #160, .F. ) ;
#95 = EDGE_CURVE ( 'NONE', #270, #343, #89, .T. ) ;
#96 = VECTOR ( 'NONE', #266, 1000.000000000000000 ) ;
#97 = ORIENTED_EDGE ( 'NONE', *, *, #90, .F. ) ;
#98 = EDGE_LOOP ( 'NONE', ( #267, #251, #154, #346, #317, #61 ) ) ;
#99 = ORIENTED_EDGE ( 'NONE', *, *, #359, .T. ) ;
#100 = FACE_OUTER_BOUND ( 'NONE', #25, .T. ) ;
#101 = EDGE_CURVE ( 'NONE', #278, #297, #306, .T. ) ;
#102 = CARTESIAN_POINT ( 'NONE',  ( -502.4999999999999432, 0.000000000000000000, -230.0000000000000000 ) ) ;
#103 = DIRECTION ( 'NONE',  ( -0.7071067811865475727, -0.7071067811865475727, 0.000000000000000000 ) ) ;
#104 = ORIENTED_EDGE ( 'NONE', *, *, #304, .T. ) ;
#105 = CARTESIAN_POINT ( 'NONE',  ( -502.4999999999999432, 25.00000000000000000, -230.0000000000000000 ) ) ;
#106 = CIRCLE ( 'NONE', #210, 44.99999999999998579 ) ;
#107 =( LENGTH_UNIT ( ) NAMED_UNIT ( * ) SI_UNIT ( .MILLI., .METRE. ) );
#108 = CARTESIAN_POINT ( 'NONE',  ( -502.4999999999999432, 25.00000000000000000, 230.0000000000000000 ) ) ;
#109 = DIRECTION ( 'NONE',  ( 0.000000000000000000, 0.000000000000000000, 1.000000000000000000 ) ) ;
#110 = ORIENTED_EDGE ( 'NONE', *, *, #379, .F. ) ;
#111 = DIRECTION ( 'NONE',  ( 0.000000000000000000, 0.000000000000000000, -1.000000000000000000 ) ) ;
#112 = ORIENTED_EDGE ( 'NONE', *, *, #224, .T. ) ;
#113 =( NAMED_UNIT ( * ) PLANE_ANGLE_UNIT ( ) SI_UNIT ( $, .RADIAN. ) );
#114 = DIRECTION ( 'NONE',  ( -0.7071067811865474617, 0.7071067811865474617, 0.000000000000000000 ) ) ;
#115 = PRESENTATION_STYLE_ASSIGNMENT (( #174 ) ) ;
#116 = DIRECTION ( 'NONE',  ( 0.000000000000000000, -1.000000000000000000, 0.000000000000000000 ) ) ;
#117 = UNCERTAINTY_MEASURE_WITH_UNIT (LENGTH_MEASURE( 1.000000000000000082E-05 ), #142, 'distance_accuracy_value', 'NONE');
#118 = CARTESIAN_POINT ( 'NONE',  ( -457.5000000000000000, 25.00000000000000000, 230.0000000000000000 ) ) ;
#119 = ORIENTED_EDGE ( 'NONE', *, *, #5, .F. ) ;
#120 = DIRECTION ( 'NONE',  ( 0.000000000000000000, -0.7071067811865475727, 0.7071067811865475727 ) ) ;
#121 = VERTEX_POINT ( 'NONE', #246 ) ;
#122 = CARTESIAN_POINT ( 'NONE',  ( -502.4999999999999432, 25.00000000000000000, 230.0000000000000000 ) ) ;
#123 = ORIENTED_EDGE ( 'NONE', *, *, #379, .T. ) ;
#124 = VECTOR ( 'NONE', #260, 1000.000000000000114 ) ;
#125 = EDGE_LOOP ( 'NONE', ( #290, #315, #219, #34 ) ) ;
#126 = ORIENTED_EDGE ( 'NONE', *, *, #370, .F. ) ;
#127 = EDGE_CURVE ( 'NONE', #69, #350, #129, .T. ) ;
#128 = CARTESIAN_POINT ( 'NONE',  ( 502.4999999999999432, 20.00000000000000000, -230.0000000000000000 ) ) ;
#129 = CIRCLE ( 'NONE', #397, 44.99999999999998579 ) ;
#130 = AXIS2_PLACEMENT_3D ( 'NONE', #108, #283, #82 ) ;
#131 = LINE ( 'NONE', #389, #259 ) ;
#132 = ADVANCED_FACE ( 'NONE', ( #369 ), #394, .T. ) ;
#133 = CARTESIAN_POINT ( 'NONE',  ( -502.4999999999999432, 0.000000000000000000, 230.0000000000000000 ) ) ;
#134 = CARTESIAN_POINT ( 'NONE',  ( 502.4999999999999432, 0.000000000000000000, -230.0000000000000000 ) ) ;
#135 = CARTESIAN_POINT ( 'NONE',  ( -502.4999999999999432, 20.00000000000000000, 230.0000000000000000 ) ) ;
#136 = FACE_OUTER_BOUND ( 'NONE', #227, .T. ) ;
#137 = AXIS2_PLACEMENT_3D ( 'NONE', #198, #164, #255 ) ;
#138 = DIRECTION ( 'NONE',  ( -1.000000000000000000, 0.000000000000000000, 0.000000000000000000 ) ) ;
#139 = CARTESIAN_POINT ( 'NONE',  ( 0.000000000000000000, 0.000000000000000000, 0.000000000000000000 ) ) ;
#140 = ADVANCED_FACE ( 'NONE', ( #300 ), #32, .F. ) ;
#141 = CARTESIAN_POINT ( 'NONE',  ( -502.4999999999999432, 0.000000000000000000, 230.0000000000000000 ) ) ;
#142 =( LENGTH_UNIT ( ) NAMED_UNIT ( * ) SI_UNIT ( .MILLI., .METRE. ) );
#143 = CARTESIAN_POINT ( 'NONE',  ( 497.5000000000000000, 25.00000000000000000, 0.000000000000000000 ) ) ;
#144 =( LENGTH_UNIT ( ) NAMED_UNIT ( * ) SI_UNIT ( .MILLI., .METRE. ) );
#145 = PLANE ( 'NONE',  #57 ) ;
#146 = PRODUCT_DEFINITION_CONTEXT ( 'detailed design', #45, 'design' ) ;
#147 = ORIENTED_EDGE ( 'NONE', *, *, #275, .F. ) ;
#148 = CARTESIAN_POINT ( 'NONE',  ( -502.4999999999999432, 0.000000000000000000, 185.0000000000000000 ) ) ;
#149 = ORIENTED_EDGE ( 'NONE', *, *, #163, .F. ) ;
#150 = DIRECTION ( 'NONE',  ( 0.000000000000000000, 1.000000000000000000, 0.000000000000000000 ) ) ;
#151 = STYLED_ITEM ( 'NONE', ( #202 ), #55 ) ;
#152 = EDGE_CURVE ( 'NONE', #121, #244, #274, .T. ) ;
#153 = VECTOR ( 'NONE', #285, 1000.000000000000114 ) ;
#154 = ORIENTED_EDGE ( 'NONE', *, *, #386, .T. ) ;
#155 = PLANE ( 'NONE',  #351 ) ;
#156 = VERTEX_POINT ( 'NONE', #148 ) ;
#157 = ORIENTED_EDGE ( 'NONE', *, *, #67, .F. ) ;
#158 =( GEOMETRIC_REPRESENTATION_CONTEXT ( 3 ) GLOBAL_UNCERTAINTY_ASSIGNED_CONTEXT ( ( #59 ) ) GLOBAL_UNIT_ASSIGNED_CONTEXT ( ( #107, #253, #44 ) ) REPRESENTATION_CONTEXT ( 'NONE', 'WORKASPACE' ) );
#159 = VERTEX_POINT ( 'NONE', #365 ) ;
#160 = EDGE_CURVE ( 'NONE', #343, #156, #106, .T. ) ;
#161 = LINE ( 'NONE', #173, #14 ) ;
#162 = DIRECTION ( 'NONE',  ( 1.000000000000000000, 0.000000000000000000, 0.000000000000000000 ) ) ;
#163 = EDGE_CURVE ( 'NONE', #3, #189, #49, .T. ) ;
#164 = DIRECTION ( 'NONE',  ( 0.000000000000000000, -1.000000000000000000, 0.000000000000000000 ) ) ;
#165 = CARTESIAN_POINT ( 'NONE',  ( 457.5000000000000000, 20.00000000000000000, 230.0000000000000000 ) ) ;
#166 = PLANE ( 'NONE',  #130 ) ;
#167 = LINE ( 'NONE', #183, #291 ) ;
#168 = PLANE ( 'NONE',  #65 ) ;
#169 = CONICAL_SURFACE ( 'NONE', #398, 40.00000000000000711, 0.7853981633974497223 ) ;
#170 = ADVANCED_FACE ( 'NONE', ( #24 ), #338, .T. ) ;
#171 = ORIENTED_EDGE ( 'NONE', *, *, #359, .F. ) ;
#172 = PRODUCT_CONTEXT ( 'NONE', #23, 'mechanical' ) ;
#173 = CARTESIAN_POINT ( 'NONE',  ( 502.4999999999999432, 20.00000000000000000, 230.0000000000000000 ) ) ;
#174 = SURFACE_STYLE_USAGE ( .BOTH. , #178 ) ;
#175 = FACE_OUTER_BOUND ( 'NONE', #388, .T. ) ;
#176 =( NAMED_UNIT ( * ) PLANE_ANGLE_UNIT ( ) SI_UNIT ( $, .RADIAN. ) );
#177 = DIRECTION ( 'NONE',  ( 0.000000000000000000, 1.000000000000000000, 0.000000000000000000 ) ) ;
#178 = SURFACE_SIDE_STYLE ('',( #87 ) ) ;
#179 = CARTESIAN_POINT ( 'NONE',  ( 457.5000000000000000, 20.00000000000000000, 185.0000000000000000 ) ) ;
#180 = ORIENTED_EDGE ( 'NONE', *, *, #195, .F. ) ;
#181 = CARTESIAN_POINT ( 'NONE',  ( -457.5000000000000000, 20.00000000000000000, 185.0000000000000000 ) ) ;
#182 = EDGE_CURVE ( 'NONE', #121, #278, #188, .T. ) ;
#183 = CARTESIAN_POINT ( 'NONE',  ( -497.5000000000000000, 25.00000000000000000, 0.000000000000000000 ) ) ;
#184 = ORIENTED_EDGE ( 'NONE', *, *, #205, .F. ) ;
#185 = COLOUR_RGB ( '',0.7921568627450980005, 0.8196078431372548767, 0.9333333333333333481 ) ;
#186 = DIRECTION ( 'NONE',  ( 0.000000000000000000, -1.000000000000000000, 0.000000000000000000 ) ) ;
#187 = ORIENTED_EDGE ( 'NONE', *, *, #224, .F. ) ;
#188 = LINE ( 'NONE', #316, #344 ) ;
#189 = VERTEX_POINT ( 'NONE', #347 ) ;
#190 = LINE ( 'NONE', #70, #197 ) ;
#191 = ORIENTED_EDGE ( 'NONE', *, *, #275, .T. ) ;
#192 = AXIS2_PLACEMENT_3D ( 'NONE', #15, #138, #335 ) ;
#193 = DIRECTION ( 'NONE',  ( -1.000000000000000000, 0.000000000000000000, 0.000000000000000000 ) ) ;
#194 = LINE ( 'NONE', #41, #153 ) ;
#195 = EDGE_CURVE ( 'NONE', #399, #233, #190, .T. ) ;
#196 = LINE ( 'NONE', #105, #241 ) ;
#197 = VECTOR ( 'NONE', #377, 1000.000000000000000 ) ;
#198 = CARTESIAN_POINT ( 'NONE',  ( -457.5000000000000000, 25.00000000000000000, 185.0000000000000000 ) ) ;
#199 = ORIENTED_EDGE ( 'NONE', *, *, #127, .F. ) ;
#200 = DIRECTION ( 'NONE',  ( 0.000000000000000000, -1.000000000000000000, 0.000000000000000000 ) ) ;
#201 = FACE_OUTER_BOUND ( 'NONE', #63, .T. ) ;
#202 = PRESENTATION_STYLE_ASSIGNMENT (( #281 ) ) ;
#203 = APPLICATION_PROTOCOL_DEFINITION ( 'draft international standard', 'automotive_design', 1998, #45 ) ;
#204 = CARTESIAN_POINT ( 'NONE',  ( 457.5000000000000000, 25.00000000000000000, 225.0000000000000000 ) ) ;
#205 = EDGE_CURVE ( 'NONE', #233, #297, #37, .T. ) ;
#206 = DIRECTION ( 'NONE',  ( 0.7071067811865474617, 0.7071067811865474617, 0.000000000000000000 ) ) ;
#207 = LINE ( 'NONE', #28, #50 ) ;
#208 = ADVANCED_BREP_SHAPE_REPRESENTATION ( 'CB100C_STP_V10322', ( #55, #292 ), #16 ) ;
#209 = CARTESIAN_POINT ( 'NONE',  ( -502.4999999999999432, 25.00000000000000000, -230.0000000000000000 ) ) ;
#210 = AXIS2_PLACEMENT_3D ( 'NONE', #86, #56, #269 ) ;
#211 = DIRECTION ( 'NONE',  ( 0.000000000000000000, -1.000000000000000000, 0.000000000000000000 ) ) ;
#212 = DIRECTION ( 'NONE',  ( 0.000000000000000000, 0.000000000000000000, 1.000000000000000000 ) ) ;
#213 = DIRECTION ( 'NONE',  ( 0.000000000000000000, 0.000000000000000000, -1.000000000000000000 ) ) ;
#214 = ADVANCED_FACE ( 'NONE', ( #100 ), #225, .F. ) ;
#215 = ORIENTED_EDGE ( 'NONE', *, *, #101, .F. ) ;
#216 = DIRECTION ( 'NONE',  ( 0.000000000000000000, 0.000000000000000000, -1.000000000000000000 ) ) ;
#217 = EDGE_LOOP ( 'NONE', ( #68, #123, #402, #94 ) ) ;
#218 = AXIS2_PLACEMENT_3D ( 'NONE', #403, #345, #252 ) ;
#219 = ORIENTED_EDGE ( 'NONE', *, *, #95, .T. ) ;
#220 = PRODUCT_RELATED_PRODUCT_CATEGORY ( 'part', '', ( #298 ) ) ;
#221 = ORIENTED_EDGE ( 'NONE', *, *, #39, .T. ) ;
#222 = ORIENTED_EDGE ( 'NONE', *, *, #8, .T. ) ;
#223 = VECTOR ( 'NONE', #234, 1000.000000000000000 ) ;
#224 = EDGE_CURVE ( 'NONE', #350, #3, #381, .T. ) ;
#225 = PLANE ( 'NONE',  #42 ) ;
#226 = FACE_OUTER_BOUND ( 'NONE', #279, .T. ) ;
#227 = EDGE_LOOP ( 'NONE', ( #104, #293, #371, #288 ) ) ;
#228 = VECTOR ( 'NONE', #329, 1000.000000000000000 ) ;
#229 = CARTESIAN_POINT ( 'NONE',  ( -502.4999999999999432, 25.00000000000000000, 185.0000000000000000 ) ) ;
#230 = ADVANCED_FACE ( 'NONE', ( #226 ), #380, .F. ) ;
#231 = ORIENTED_EDGE ( 'NONE', *, *, #127, .T. ) ;
#232 = DIRECTION ( 'NONE',  ( 0.000000000000000000, 0.000000000000000000, -1.000000000000000000 ) ) ;
#233 = VERTEX_POINT ( 'NONE', #134 ) ;
#234 = DIRECTION ( 'NONE',  ( 0.000000000000000000, 1.000000000000000000, 0.000000000000000000 ) ) ;
#235 = SURFACE_STYLE_FILL_AREA ( #390 ) ;
#236 = AXIS2_PLACEMENT_3D ( 'NONE', #242, #177, #213 ) ;
#237 = EDGE_CURVE ( 'NONE', #278, #83, #80, .T. ) ;
#238 = CIRCLE ( 'NONE', #91, 40.00000000000000711 ) ;
#239 = LINE ( 'NONE', #143, #362 ) ;
#240 = SHAPE_DEFINITION_REPRESENTATION ( #341, #208 ) ;
#241 = VECTOR ( 'NONE', #43, 1000.000000000000000 ) ;
#242 = CARTESIAN_POINT ( 'NONE',  ( 457.5000000000000000, 25.00000000000000000, 185.0000000000000000 ) ) ;
#243 = EDGE_CURVE ( 'NONE', #343, #159, #289, .T. ) ;
#244 = VERTEX_POINT ( 'NONE', #357 ) ;
#245 =( NAMED_UNIT ( * ) SI_UNIT ( $, .STERADIAN. ) SOLID_ANGLE_UNIT ( ) );
#246 = CARTESIAN_POINT ( 'NONE',  ( -502.4999999999999432, 20.00000000000000000, 185.0000000000000000 ) ) ;
#247 = EDGE_LOOP ( 'NONE', ( #222, #149, #187, #199 ) ) ;
#248 = ORIENTED_EDGE ( 'NONE', *, *, #29, .F. ) ;
#249 = VECTOR ( 'NONE', #318, 1000.000000000000000 ) ;
#250 = ORIENTED_EDGE ( 'NONE', *, *, #67, .T. ) ;
#251 = ORIENTED_EDGE ( 'NONE', *, *, #74, .T. ) ;
#252 = DIRECTION ( 'NONE',  ( 0.000000000000000000, 0.000000000000000000, -1.000000000000000000 ) ) ;
#253 =( NAMED_UNIT ( * ) PLANE_ANGLE_UNIT ( ) SI_UNIT ( $, .RADIAN. ) );
#254 = COLOUR_RGB ( '',0.7921568627450980005, 0.8196078431372548767, 0.9333333333333333481 ) ;
#255 = DIRECTION ( 'NONE',  ( 0.000000000000000000, 0.000000000000000000, -1.000000000000000000 ) ) ;
#256 = FACE_OUTER_BOUND ( 'NONE', #217, .T. ) ;
#257 = CARTESIAN_POINT ( 'NONE',  ( -497.5000000000000000, 25.00000000000000000, -230.0000000000000000 ) ) ;
#258 = LINE ( 'NONE', #141, #71 ) ;
#259 = VECTOR ( 'NONE', #10, 1000.000000000000000 ) ;
#260 = DIRECTION ( 'NONE',  ( 0.7071067811865474617, 0.7071067811865474617, 0.000000000000000000 ) ) ;
#261 = CARTESIAN_POINT ( 'NONE',  ( 497.5000000000000000, 25.00000000000000000, -230.0000000000000000 ) ) ;
#262 = FACE_OUTER_BOUND ( 'NONE', #373, .T. ) ;
#263 = CARTESIAN_POINT ( 'NONE',  ( 502.4999999999999432, 20.00000000000000000, 185.0000000000000000 ) ) ;
#264 = ADVANCED_FACE ( 'NONE', ( #262 ), #169, .T. ) ;
#265 = CARTESIAN_POINT ( 'NONE',  ( 0.000000000000000000, 25.00000000000000000, 0.000000000000000000 ) ) ;
#266 = DIRECTION ( 'NONE',  ( 0.000000000000000000, -1.000000000000000000, 0.000000000000000000 ) ) ;
#267 = ORIENTED_EDGE ( 'NONE', *, *, #313, .T. ) ;
#268 = CARTESIAN_POINT ( 'NONE',  ( 0.000000000000000000, 0.000000000000000000, 0.000000000000000000 ) ) ;
#269 = DIRECTION ( 'NONE',  ( 0.000000000000000000, 0.000000000000000000, -1.000000000000000000 ) ) ;
#270 = VERTEX_POINT ( 'NONE', #13 ) ;
#271 = DIRECTION ( 'NONE',  ( 1.000000000000000000, 0.000000000000000000, 0.000000000000000000 ) ) ;
#272 = CARTESIAN_POINT ( 'NONE',  ( -497.5000000000000000, 25.00000000000000000, -230.0000000000000000 ) ) ;
#273 = ORIENTED_EDGE ( 'NONE', *, *, #195, .T. ) ;
#274 = LINE ( 'NONE', #1, #64 ) ;
#275 = EDGE_CURVE ( 'NONE', #69, #399, #131, .T. ) ;
#276 = ORIENTED_EDGE ( 'NONE', *, *, #39, .F. ) ;
#277 = DIRECTION ( 'NONE',  ( 0.000000000000000000, 0.000000000000000000, -1.000000000000000000 ) ) ;
#278 = VERTEX_POINT ( 'NONE', #385 ) ;
#279 = EDGE_LOOP ( 'NONE', ( #375, #248, #310, #276 ) ) ;
#280 = CARTESIAN_POINT ( 'NONE',  ( -502.4999999999999432, 0.000000000000000000, -230.0000000000000000 ) ) ;
#281 = SURFACE_STYLE_USAGE ( .BOTH. , #358 ) ;
#282 = ADVANCED_FACE ( 'NONE', ( #136 ), #166, .F. ) ;
#283 = DIRECTION ( 'NONE',  ( 1.000000000000000000, 0.000000000000000000, 0.000000000000000000 ) ) ;
#284 =( GEOMETRIC_REPRESENTATION_CONTEXT ( 3 ) GLOBAL_UNCERTAINTY_ASSIGNED_CONTEXT ( ( #395 ) ) GLOBAL_UNIT_ASSIGNED_CONTEXT ( ( #144, #176, #245 ) ) REPRESENTATION_CONTEXT ( 'NONE', 'WORKASPACE' ) );
#285 = DIRECTION ( 'NONE',  ( 0.7071067811865474617, -0.7071067811865474617, 0.000000000000000000 ) ) ;
#286 = ADVANCED_FACE ( 'NONE', ( #201 ), #168, .T. ) ;
#287 = CARTESIAN_POINT ( 'NONE',  ( 457.5000000000000000, 0.000000000000000000, 185.0000000000000000 ) ) ;
#288 = ORIENTED_EDGE ( 'NONE', *, *, #52, .T. ) ;
#289 = LINE ( 'NONE', #133, #354 ) ;
#290 = ORIENTED_EDGE ( 'NONE', *, *, #370, .T. ) ;
#291 = VECTOR ( 'NONE', #62, 1000.000000000000000 ) ;
#292 = AXIS2_PLACEMENT_3D ( 'NONE', #268, #340, #271 ) ;
#293 = ORIENTED_EDGE ( 'NONE', *, *, #182, .T. ) ;
#294 = DIRECTION ( 'NONE',  ( 0.000000000000000000, 0.7071067811865474617, -0.7071067811865474617 ) ) ;
#295 = ADVANCED_FACE ( 'NONE', ( #256 ), #9, .T. ) ;
#296 = LINE ( 'NONE', #135, #367 ) ;
#297 = VERTEX_POINT ( 'NONE', #102 ) ;
#298 = PRODUCT ( 'CB100C_STP_V10322', 'CB100C_STP_V10322', '', ( #172 ) ) ;
#299 = DIRECTION ( 'NONE',  ( 0.000000000000000000, 1.000000000000000000, 0.000000000000000000 ) ) ;
#300 = FACE_OUTER_BOUND ( 'NONE', #98, .T. ) ;
#301 = AXIS2_PLACEMENT_3D ( 'NONE', #40, #103, #48 ) ;
#302 =( NAMED_UNIT ( * ) SI_UNIT ( $, .STERADIAN. ) SOLID_ANGLE_UNIT ( ) );
#303 = AXIS2_PLACEMENT_3D ( 'NONE', #287, #200, #328 ) ;
#304 = EDGE_CURVE ( 'NONE', #156, #121, #75, .T. ) ;
#305 = DIRECTION ( 'NONE',  ( 0.000000000000000000, 0.000000000000000000, -1.000000000000000000 ) ) ;
#306 = LINE ( 'NONE', #209, #325 ) ;
#307 = VERTEX_POINT ( 'NONE', #326 ) ;
#308 = DIRECTION ( 'NONE',  ( 0.000000000000000000, -1.000000000000000000, 0.000000000000000000 ) ) ;
#309 = FACE_OUTER_BOUND ( 'NONE', #125, .T. ) ;
#310 = ORIENTED_EDGE ( 'NONE', *, *, #8, .F. ) ;
#311 = AXIS2_PLACEMENT_3D ( 'NONE', #265, #116, #339 ) ;
#312 = PRESENTATION_LAYER_ASSIGNMENT (  '', '', ( #363 ) ) ;
#313 = EDGE_CURVE ( 'NONE', #31, #83, #196, .T. ) ;
#314 = DIRECTION ( 'NONE',  ( 0.000000000000000000, 0.7071067811865474617, -0.7071067811865474617 ) ) ;
#315 = ORIENTED_EDGE ( 'NONE', *, *, #5, .T. ) ;
#316 = CARTESIAN_POINT ( 'NONE',  ( -502.4999999999999432, 20.00000000000000000, 230.0000000000000000 ) ) ;
#317 = ORIENTED_EDGE ( 'NONE', *, *, #163, .T. ) ;
#318 = DIRECTION ( 'NONE',  ( -1.000000000000000000, 0.000000000000000000, 0.000000000000000000 ) ) ;
#319 = ORIENTED_EDGE ( 'NONE', *, *, #243, .F. ) ;
#320 = MECHANICAL_DESIGN_GEOMETRIC_PRESENTATION_REPRESENTATION (  '', ( #363 ), #284 ) ;
#321 = EDGE_LOOP ( 'NONE', ( #147, #231, #126, #171 ) ) ;
#322 = EDGE_CURVE ( 'NONE', #307, #3, #360, .T. ) ;
#323 = DIRECTION ( 'NONE',  ( 0.7071067811865475727, -0.7071067811865475727, 0.000000000000000000 ) ) ;
#324 = DIRECTION ( 'NONE',  ( 1.000000000000000000, 0.000000000000000000, 0.000000000000000000 ) ) ;
#325 = VECTOR ( 'NONE', #60, 1000.000000000000000 ) ;
#326 = CARTESIAN_POINT ( 'NONE',  ( -457.5000000000000000, 25.00000000000000000, 225.0000000000000000 ) ) ;
#327 = LINE ( 'NONE', #81, #228 ) ;
#328 = DIRECTION ( 'NONE',  ( 0.000000000000000000, 0.000000000000000000, -1.000000000000000000 ) ) ;
#329 = DIRECTION ( 'NONE',  ( 0.000000000000000000, -1.000000000000000000, 0.000000000000000000 ) ) ;
#330 = CARTESIAN_POINT ( 'NONE',  ( 457.5000000000000000, 20.00000000000000000, 230.0000000000000000 ) ) ;
#331 = ORIENTED_EDGE ( 'NONE', *, *, #322, .F. ) ;
#332 = CLOSED_SHELL ( 'NONE', ( #214, #264, #84, #170, #230, #295, #132, #286, #140, #78, #282, #366, #20 ) ) ;
#333 = CIRCLE ( 'NONE', #378, 44.99999999999998579 ) ;
#334 = PLANE ( 'NONE',  #73 ) ;
#335 = DIRECTION ( 'NONE',  ( 0.000000000000000000, 0.000000000000000000, 1.000000000000000000 ) ) ;
#336 = CARTESIAN_POINT ( 'NONE',  ( -457.5000000000000000, 25.00000000000000000, 185.0000000000000000 ) ) ;
#337 = CARTESIAN_POINT ( 'NONE',  ( -457.5000000000000000, 20.00000000000000000, 230.0000000000000000 ) ) ;
#338 = CONICAL_SURFACE ( 'NONE', #218, 40.00000000000000711, 0.7853981633974497223 ) ;
#339 = DIRECTION ( 'NONE',  ( 0.000000000000000000, 0.000000000000000000, -1.000000000000000000 ) ) ;
#340 = DIRECTION ( 'NONE',  ( 0.000000000000000000, 0.000000000000000000, 1.000000000000000000 ) ) ;
#341 = PRODUCT_DEFINITION_SHAPE ( 'NONE', 'NONE',  #392 ) ;
#342 = ORIENTED_EDGE ( 'NONE', *, *, #90, .T. ) ;
#343 = VERTEX_POINT ( 'NONE', #11 ) ;
#344 = VECTOR ( 'NONE', #277, 1000.000000000000000 ) ;
#345 = DIRECTION ( 'NONE',  ( 0.000000000000000000, -1.000000000000000000, 0.000000000000000000 ) ) ;
#346 = ORIENTED_EDGE ( 'NONE', *, *, #322, .T. ) ;
#347 = CARTESIAN_POINT ( 'NONE',  ( 497.5000000000000000, 25.00000000000000000, 185.0000000000000000 ) ) ;
#348 = EDGE_LOOP ( 'NONE', ( #215, #391, #7, #12, #250, #66 ) ) ;
#349 = EDGE_CURVE ( 'NONE', #31, #6, #194, .T. ) ;
#350 = VERTEX_POINT ( 'NONE', #165 ) ;
#351 = AXIS2_PLACEMENT_3D ( 'NONE', #54, #401, #120 ) ;
#352 = CARTESIAN_POINT ( 'NONE',  ( -457.5000000000000000, 25.00000000000000000, 185.0000000000000000 ) ) ;
#353 = CARTESIAN_POINT ( 'NONE',  ( -497.5000000000000000, 25.00000000000000000, 0.000000000000000000 ) ) ;
#354 = VECTOR ( 'NONE', #162, 1000.000000000000000 ) ;
#355 = FACE_OUTER_BOUND ( 'NONE', #2, .T. ) ;
#356 = CARTESIAN_POINT ( 'NONE',  ( 0.000000000000000000, 25.00000000000000000, 225.0000000000000000 ) ) ;
#357 = CARTESIAN_POINT ( 'NONE',  ( -497.5000000000000000, 25.00000000000000000, 185.0000000000000000 ) ) ;
#358 = SURFACE_SIDE_STYLE ('',( #235 ) ) ;
#359 = EDGE_CURVE ( 'NONE', #399, #159, #85, .T. ) ;
#360 = LINE ( 'NONE', #356, #58 ) ;
#361 = ORIENTED_EDGE ( 'NONE', *, *, #74, .F. ) ;
#362 = VECTOR ( 'NONE', #53, 1000.000000000000000 ) ;
#363 = STYLED_ITEM ( 'NONE', ( #115 ), #208 ) ;
#364 = APPLICATION_PROTOCOL_DEFINITION ( 'draft international standard', 'automotive_design', 1998, #23 ) ;
#365 = CARTESIAN_POINT ( 'NONE',  ( 457.5000000000000000, 0.000000000000000000, 230.0000000000000000 ) ) ;
#366 = ADVANCED_FACE ( 'NONE', ( #46 ), #334, .F. ) ;
#367 = VECTOR ( 'NONE', #193, 1000.000000000000000 ) ;
#368 = FILL_AREA_STYLE_COLOUR ( '', #254 ) ;
#369 = FACE_OUTER_BOUND ( 'NONE', #321, .T. ) ;
#370 = EDGE_CURVE ( 'NONE', #159, #350, #207, .T. ) ;
#371 = ORIENTED_EDGE ( 'NONE', *, *, #101, .T. ) ;
#372 = DIRECTION ( 'NONE',  ( 0.000000000000000000, 0.000000000000000000, -1.000000000000000000 ) ) ;
#373 = EDGE_LOOP ( 'NONE', ( #342, #92, #33, #110 ) ) ;
#374 = ORIENTED_EDGE ( 'NONE', *, *, #237, .F. ) ;
#375 = ORIENTED_EDGE ( 'NONE', *, *, #349, .F. ) ;
#376 = ORIENTED_EDGE ( 'NONE', *, *, #152, .T. ) ;
#377 = DIRECTION ( 'NONE',  ( 0.000000000000000000, 0.000000000000000000, -1.000000000000000000 ) ) ;
#378 = AXIS2_PLACEMENT_3D ( 'NONE', #181, #308, #305 ) ;
#379 = EDGE_CURVE ( 'NONE', #270, #121, #333, .T. ) ;
#380 = PLANE ( 'NONE',  #301 ) ;
#381 = LINE ( 'NONE', #330, #77 ) ;
#382 = DIRECTION ( 'NONE',  ( 0.000000000000000000, 0.000000000000000000, -1.000000000000000000 ) ) ;
#383 = LINE ( 'NONE', #263, #4 ) ;
#384 = PRODUCT_DEFINITION_FORMATION_WITH_SPECIFIED_SOURCE ( 'ANY', '', #298, .NOT_KNOWN. ) ;
#385 = CARTESIAN_POINT ( 'NONE',  ( -502.4999999999999432, 20.00000000000000000, -230.0000000000000000 ) ) ;
#386 = EDGE_CURVE ( 'NONE', #244, #307, #238, .T. ) ;
#387 = FILL_AREA_STYLE_COLOUR ( '', #185 ) ;
#388 = EDGE_LOOP ( 'NONE', ( #112, #331, #97, #119 ) ) ;
#389 = CARTESIAN_POINT ( 'NONE',  ( 502.4999999999999432, 25.00000000000000000, 185.0000000000000000 ) ) ;
#390 = FILL_AREA_STYLE ('',( #387 ) ) ;
#391 = ORIENTED_EDGE ( 'NONE', *, *, #237, .T. ) ;
#392 = PRODUCT_DEFINITION ( 'UNKNOWN', '', #384, #146 ) ;
#393 = CARTESIAN_POINT ( 'NONE',  ( -502.4999999999999432, 25.00000000000000000, -230.0000000000000000 ) ) ;
#394 = CYLINDRICAL_SURFACE ( 'NONE', #36, 44.99999999999998579 ) ;
#395 = UNCERTAINTY_MEASURE_WITH_UNIT (LENGTH_MEASURE( 1.000000000000000082E-05 ), #144, 'distance_accuracy_value', 'NONE');
#396 = FILL_AREA_STYLE ('',( #368 ) ) ;
#397 = AXIS2_PLACEMENT_3D ( 'NONE', #179, #211, #372 ) ;
#398 = AXIS2_PLACEMENT_3D ( 'NONE', #352, #76, #382 ) ;
#399 = VERTEX_POINT ( 'NONE', #19 ) ;
#400 = DIRECTION ( 'NONE',  ( 1.000000000000000000, 0.000000000000000000, 0.000000000000000000 ) ) ;
#401 = DIRECTION ( 'NONE',  ( 0.000000000000000000, -0.7071067811865475727, -0.7071067811865475727 ) ) ;
#402 = ORIENTED_EDGE ( 'NONE', *, *, #304, .F. ) ;
#403 = CARTESIAN_POINT ( 'NONE',  ( 457.5000000000000000, 25.00000000000000000, 185.0000000000000000 ) ) ;
ENDSEC;
END-ISO-10303-21;
